  0
SECTION
  2
HEADER
  9
$ACADVER
  1
AC1018
  9
$HANDSEED
  5
FFFFFF
  9
$EXTMAX
 10
7575592.61000000034
 20
5728441.79000000004
 30
1000000.00
  9
$EXTMIN
 10
7574903.21999999974
 20
5726148.16000000015
 30
0.00
  9
$LIMMIN
 10
7574903.21999999974
 20
5726148.16000000015
  9
$LIMMAX
 10
7575592.61000000034
 20
5728441.79000000004
  9
$DIMASZ
 40
2.5
  9
$DIMGAP
 40
0.625
  9
$INSUNITS
 70
6
  9
$DIMEXO
 40
0.625
  9
$DIMTXT
 40
2.5
  9
$DIMSTYLE
  2
Standard
  9
$PLIMMIN
 10
0.0
 20
0.0
  9
$PLIMMAX
 10
210.0
 20
297.0
  9
$DIMEXE
 40
1.25
  9
$TEXTSIZE
 40
2.5
  9
$TEXTSTYLE
  7
Standard
  9
$LWDISPLAY
290
1
  9
$TDCREATE
 40
45139.410145729
  9
$TDUCREATE
 40
45139.326812396
  9
$TDUPDATE
 40
45139.410145729
  9
$TDUUPDATE
 40
45139.326812396
  9
$TDINDWG
 40
0.0
  9
$TDUSRTIMER
 40
0.0
  9
$USRTIMER
 70
1
  0
ENDSEC
  0
SECTION
  2
TABLES
  0
TABLE
  2
VPORT
  5
1
100
AcDbSymbolTable
 70
1
  0
VPORT
  5
2
100
AcDbSymbolTableRecord
100
AcDbViewportTableRecord
  2
*ACTIVE
 70
0
 10
0.0
 20
0.0
 11
1.0
 21
1.0
 12
7575247.915
 22
5727294.975
 13
0.0
 23
0.0
 14
1.0
 24
1.0
 15
0.0
 25
0.0
 16
0.0
 26
0.0
 36
1.0
 17
0.0
 27
0.0
 37
0.0
 40
2293.630
 41
0.301
 42
50.0
 43
0.0
 44
0.0
 50
0.0
 51
0.0
 71
0
 72
100
 73
1
 74
1
 75
0
 76
0
 77
0
 78
0
  0
ENDTAB
  0
TABLE
  2
LTYPE
  5
3
100
AcDbSymbolTable
 70
3
  0
LTYPE
  5
4
100
AcDbSymbolTableRecord
100
AcDbLinetypeTableRecord
  2
ByBlock
 70
0
  3

 72
65
 73
0
 40
0.0
  0
LTYPE
  5
5
100
AcDbSymbolTableRecord
100
AcDbLinetypeTableRecord
  2
ByLayer
 70
0
  3

 72
65
 73
0
 40
0.0
  0
LTYPE
  5
6
100
AcDbSymbolTableRecord
100
AcDbLinetypeTableRecord
  2
CONTINUOUS
 70
0
  3
Solid line
 72
65
 73
0
 40
0.0
  0
ENDTAB
  0
TABLE
  2
LAYER
  5
7
100
AcDbSymbolTable
 70
3
  0
LAYER
  5
8
100
AcDbSymbolTableRecord
100
AcDbLayerTableRecord
  2
0
 70
0
420
0
  6
CONTINUOUS
370
18
390
9
  0
LAYER
  5
A
100
AcDbSymbolTableRecord
100
AcDbLayerTableRecord
  2
ewns_budynki
 70
0
420
0
  6
CONTINUOUS
370
18
390
9
  0
LAYER
  5
B
100
AcDbSymbolTableRecord
100
AcDbLayerTableRecord
  2
ewns_dzialki
 70
0
420
0
  6
CONTINUOUS
370
18
390
9
  0
ENDTAB
  0
TABLE
  2
STYLE
  5
C
100
AcDbSymbolTable
 70
2
  0
STYLE
  5
D
100
AcDbSymbolTableRecord
100
AcDbTextStyleTableRecord
  2
STANDARD
 70
0
 40
0.0
 41
1.0
 50
0.0
 71
0
  3
simplex.shx
  4

  0
STYLE
  5
E
100
AcDbSymbolTableRecord
100
AcDbTextStyleTableRecord
  2
STANDARD_ITALIC
 70
0
 40
0.0
 41
1.0
 50
15.0
 71
0
  3
simplex.shx
  4

  0
ENDTAB
  0
TABLE
  2
VIEW
  5
F
100
AcDbSymbolTable
 70
0
  0
ENDTAB
  0
TABLE
  2
UCS
  5
10
100
AcDbSymbolTable
 70
0
  0
ENDTAB
  0
TABLE
  2
APPID
  5
11
100
AcDbSymbolTable
 70
1
  0
APPID
  5
12
100
AcDbSymbolTableRecord
100
AcDbRegAppTableRecord
  2
ACAD
 70
0
  0
ENDTAB
  0
TABLE
  2
DIMSTYLE
  5
13
100
AcDbSymbolTable
 70
1
100
AcDbDimStyleTable
  0
DIMSTYLE
105
14
100
AcDbSymbolTableRecord
100
AcDbDimStyleTableRecord
  2
Standard
 70
0
340
D
  0
ENDTAB
  0
TABLE
  2
BLOCK_RECORD
  5
15
100
AcDbSymbolTable
 70
2
  0
BLOCK_RECORD
  5
16
100
AcDbSymbolTableRecord
100
AcDbBlockTableRecord
  2
*Model_Space
340
17
  0
BLOCK_RECORD
  5
18
100
AcDbSymbolTableRecord
100
AcDbBlockTableRecord
  2
*Paper_Space
340
19
  0
ENDTAB
  0
ENDSEC
  0
SECTION
  2
BLOCKS
  0
BLOCK
  5
1A
100
AcDbEntity
  8
0
100
AcDbBlockBegin
  2
*Model_Space
 70
0
 10
0.0
 20
0.0
 30
0.0
  3
*Model_Space
  1

  0
ENDBLK
  5
1B
100
AcDbEntity
  8
0
100
AcDbBlockEnd
  0
BLOCK
  5
1C
100
AcDbEntity
 67
1
  8
0
100
AcDbBlockBegin
  2
*Paper_Space
 70
0
 10
0.0
 20
0.0
 30
0.0
  3
*Paper_Space
  1

  0
ENDBLK
  5
1D
100
AcDbEntity
 67
1
  8
0
100
AcDbBlockEnd
  0
ENDSEC
  0
SECTION
  2
ENTITIES
  0
POLYLINE
  5
1E
100
AcDbEntity
  8
ewns_budynki
  6
CONTINUOUS
370
18
100
AcDb2dPolyline
 66
1
 70
129
  0
VERTEX
  5
1F
100
AcDbEntity
  8
ewns_budynki
100
AcDbVertex
100
AcDb2dVertex
 10
7575237.28000000026
 20
5727753.05999999959
  0
VERTEX
  5
20
100
AcDbEntity
  8
ewns_budynki
100
AcDbVertex
100
AcDb2dVertex
 10
7575252.04999999981
 20
5727756.1799999997
  0
VERTEX
  5
21
100
AcDbEntity
  8
ewns_budynki
100
AcDbVertex
100
AcDb2dVertex
 10
7575253.20000000019
 20
5727750.49000000022
  0
VERTEX
  5
22
100
AcDbEntity
  8
ewns_budynki
100
AcDbVertex
100
AcDb2dVertex
 10
7575238.29000000004
 20
5727747.40000000037
  0
SEQEND
  5
23
100
AcDbEntity
  8
ewns_budynki
  0
POLYLINE
  5
24
100
AcDbEntity
  8
ewns_budynki
  6
CONTINUOUS
370
18
100
AcDb2dPolyline
 66
1
 70
129
  0
VERTEX
  5
25
100
AcDbEntity
  8
ewns_budynki
100
AcDbVertex
100
AcDb2dVertex
 10
7575244.26999999955
 20
5727739.26999999955
  0
VERTEX
  5
26
100
AcDbEntity
  8
ewns_budynki
100
AcDbVertex
100
AcDb2dVertex
 10
7575243.00999999978
 20
5727745.08000000007
  0
VERTEX
  5
27
100
AcDbEntity
  8
ewns_budynki
100
AcDbVertex
100
AcDb2dVertex
 10
7575246.0700000003
 20
5727745.76999999955
  0
VERTEX
  5
28
100
AcDbEntity
  8
ewns_budynki
100
AcDbVertex
100
AcDb2dVertex
 10
7575247.4299999997
 20
5727739.96999999974
  0
SEQEND
  5
29
100
AcDbEntity
  8
ewns_budynki
  0
POLYLINE
  5
2A
100
AcDbEntity
  8
ewns_budynki
  6
CONTINUOUS
370
18
100
AcDb2dPolyline
 66
1
 70
129
  0
VERTEX
  5
2B
100
AcDbEntity
  8
ewns_budynki
100
AcDbVertex
100
AcDb2dVertex
 10
7575230.75999999978
 20
5727772.30999999959
  0
VERTEX
  5
2C
100
AcDbEntity
  8
ewns_budynki
100
AcDbVertex
100
AcDb2dVertex
 10
7575229.50999999978
 20
5727777.29999999981
  0
VERTEX
  5
2D
100
AcDbEntity
  8
ewns_budynki
100
AcDbVertex
100
AcDb2dVertex
 10
7575246.62000000011
 20
5727781.73000000045
  0
VERTEX
  5
2E
100
AcDbEntity
  8
ewns_budynki
100
AcDbVertex
100
AcDb2dVertex
 10
7575247.83000000007
 20
5727776.76999999955
  0
SEQEND
  5
2F
100
AcDbEntity
  8
ewns_budynki
  0
POLYLINE
  5
30
100
AcDbEntity
  8
ewns_budynki
  6
CONTINUOUS
370
18
100
AcDb2dPolyline
 66
1
 70
129
  0
VERTEX
  5
31
100
AcDbEntity
  8
ewns_budynki
100
AcDbVertex
100
AcDb2dVertex
 10
7575247.4299999997
 20
5727739.96999999974
  0
VERTEX
  5
32
100
AcDbEntity
  8
ewns_budynki
100
AcDbVertex
100
AcDb2dVertex
 10
7575246.0700000003
 20
5727745.76999999955
  0
VERTEX
  5
33
100
AcDbEntity
  8
ewns_budynki
100
AcDbVertex
100
AcDb2dVertex
 10
7575255.44000000041
 20
5727747.86000000034
  0
VERTEX
  5
34
100
AcDbEntity
  8
ewns_budynki
100
AcDbVertex
100
AcDb2dVertex
 10
7575260.37000000011
 20
5727726.40000000037
  0
VERTEX
  5
35
100
AcDbEntity
  8
ewns_budynki
100
AcDbVertex
100
AcDb2dVertex
 10
7575251.09999999963
 20
5727724.25
  0
SEQEND
  5
36
100
AcDbEntity
  8
ewns_budynki
  0
POLYLINE
  5
37
100
AcDbEntity
  8
ewns_budynki
  6
CONTINUOUS
370
18
100
AcDb2dPolyline
 66
1
 70
129
  0
VERTEX
  5
38
100
AcDbEntity
  8
ewns_budynki
100
AcDbVertex
100
AcDb2dVertex
 10
7575204.70000000019
 20
5727732.05999999959
  0
VERTEX
  5
39
100
AcDbEntity
  8
ewns_budynki
100
AcDbVertex
100
AcDb2dVertex
 10
7575212.94000000041
 20
5727731.63999999966
  0
VERTEX
  5
3A
100
AcDbEntity
  8
ewns_budynki
100
AcDbVertex
100
AcDb2dVertex
 10
7575212.79999999981
 20
5727728.99000000022
  0
VERTEX
  5
3B
100
AcDbEntity
  8
ewns_budynki
100
AcDbVertex
100
AcDb2dVertex
 10
7575212.63999999966
 20
5727725.79999999981
  0
VERTEX
  5
3C
100
AcDbEntity
  8
ewns_budynki
100
AcDbVertex
100
AcDb2dVertex
 10
7575212.36000000034
 20
5727720.29999999981
  0
VERTEX
  5
3D
100
AcDbEntity
  8
ewns_budynki
100
AcDbVertex
100
AcDb2dVertex
 10
7575204.0700000003
 20
5727720.75999999978
  0
SEQEND
  5
3E
100
AcDbEntity
  8
ewns_budynki
  0
POLYLINE
  5
3F
100
AcDbEntity
  8
ewns_budynki
  6
CONTINUOUS
370
18
100
AcDb2dPolyline
 66
1
 70
129
  0
VERTEX
  5
40
100
AcDbEntity
  8
ewns_budynki
100
AcDbVertex
100
AcDb2dVertex
 10
7575243.00999999978
 20
5727745.08000000007
  0
VERTEX
  5
41
100
AcDbEntity
  8
ewns_budynki
100
AcDbVertex
100
AcDb2dVertex
 10
7575244.26999999955
 20
5727739.26999999955
  0
VERTEX
  5
42
100
AcDbEntity
  8
ewns_budynki
100
AcDbVertex
100
AcDb2dVertex
 10
7575244.29999999981
 20
5727739.12000000011
  0
VERTEX
  5
43
100
AcDbEntity
  8
ewns_budynki
100
AcDbVertex
100
AcDb2dVertex
 10
7575224.71999999974
 20
5727734.74000000022
  0
VERTEX
  5
44
100
AcDbEntity
  8
ewns_budynki
100
AcDbVertex
100
AcDb2dVertex
 10
7575223.5
 20
5727740.53000000026
  0
VERTEX
  5
45
100
AcDbEntity
  8
ewns_budynki
100
AcDbVertex
100
AcDb2dVertex
 10
7575223.45999999996
 20
5727740.70999999996
  0
SEQEND
  5
46
100
AcDbEntity
  8
ewns_budynki
  0
POLYLINE
  5
47
100
AcDbEntity
  8
ewns_budynki
  6
CONTINUOUS
370
18
100
AcDb2dPolyline
 66
1
 70
129
  0
VERTEX
  5
48
100
AcDbEntity
  8
ewns_budynki
100
AcDbVertex
100
AcDb2dVertex
 10
7575253.90000000037
 20
5727783.61000000034
  0
VERTEX
  5
49
100
AcDbEntity
  8
ewns_budynki
100
AcDbVertex
100
AcDb2dVertex
 10
7575259.75999999978
 20
5727759.61000000034
  0
VERTEX
  5
4A
100
AcDbEntity
  8
ewns_budynki
100
AcDbVertex
100
AcDb2dVertex
 10
7575252.4299999997
 20
5727757.91000000015
  0
VERTEX
  5
4B
100
AcDbEntity
  8
ewns_budynki
100
AcDbVertex
100
AcDb2dVertex
 10
7575251.16999999993
 20
5727763.04999999981
  0
VERTEX
  5
4C
100
AcDbEntity
  8
ewns_budynki
100
AcDbVertex
100
AcDb2dVertex
 10
7575247.83000000007
 20
5727776.76999999955
  0
VERTEX
  5
4D
100
AcDbEntity
  8
ewns_budynki
100
AcDbVertex
100
AcDb2dVertex
 10
7575246.62000000011
 20
5727781.73000000045
  0
SEQEND
  5
4E
100
AcDbEntity
  8
ewns_budynki
  0
POLYLINE
  5
4F
100
AcDbEntity
  8
ewns_budynki
  6
CONTINUOUS
370
18
100
AcDb2dPolyline
 66
1
 70
129
  0
VERTEX
  5
50
100
AcDbEntity
  8
ewns_budynki
100
AcDbVertex
100
AcDb2dVertex
 10
7575228.87999999989
 20
5727757.58999999985
  0
VERTEX
  5
51
100
AcDbEntity
  8
ewns_budynki
100
AcDbVertex
100
AcDb2dVertex
 10
7575231.4299999997
 20
5727757.79999999981
  0
VERTEX
  5
52
100
AcDbEntity
  8
ewns_budynki
100
AcDbVertex
100
AcDb2dVertex
 10
7575232.08000000007
 20
5727749.87999999989
  0
VERTEX
  5
53
100
AcDbEntity
  8
ewns_budynki
100
AcDbVertex
100
AcDb2dVertex
 10
7575229.54999999981
 20
5727749.59999999963
  0
VERTEX
  5
54
100
AcDbEntity
  8
ewns_budynki
100
AcDbVertex
100
AcDb2dVertex
 10
7575229.55999999959
 20
5727749.45000000019
  0
VERTEX
  5
55
100
AcDbEntity
  8
ewns_budynki
100
AcDbVertex
100
AcDb2dVertex
 10
7575219.36000000034
 20
5727748.48000000045
  0
VERTEX
  5
56
100
AcDbEntity
  8
ewns_budynki
100
AcDbVertex
100
AcDb2dVertex
 10
7575218.23000000045
 20
5727760.71999999974
  0
VERTEX
  5
57
100
AcDbEntity
  8
ewns_budynki
100
AcDbVertex
100
AcDb2dVertex
 10
7575228.46999999974
 20
5727761.73000000045
  0
SEQEND
  5
58
100
AcDbEntity
  8
ewns_budynki
  0
POLYLINE
  5
59
100
AcDbEntity
  8
ewns_dzialki
  6
CONTINUOUS
370
18
100
AcDb2dPolyline
 66
1
 70
129
  0
VERTEX
  5
5A
100
AcDbEntity
  8
ewns_dzialki
100
AcDbVertex
100
AcDb2dVertex
 10
7575110.12000000011
 20
5727759.11000000034
  0
VERTEX
  5
5B
100
AcDbEntity
  8
ewns_dzialki
100
AcDbVertex
100
AcDb2dVertex
 10
7575217.90000000037
 20
5727789.20999999996
  0
VERTEX
  5
5C
100
AcDbEntity
  8
ewns_dzialki
100
AcDbVertex
100
AcDb2dVertex
 10
7575201.08999999985
 20
5727760.8200000003
  0
VERTEX
  5
5D
100
AcDbEntity
  8
ewns_dzialki
100
AcDbVertex
100
AcDb2dVertex
 10
7575114.63999999966
 20
5727739.62999999989
  0
SEQEND
  5
5E
100
AcDbEntity
  8
ewns_dzialki
  0
POLYLINE
  5
5F
100
AcDbEntity
  8
ewns_dzialki
  6
CONTINUOUS
370
18
100
AcDb2dPolyline
 66
1
 70
129
  0
VERTEX
  5
60
100
AcDbEntity
  8
ewns_dzialki
100
AcDbVertex
100
AcDb2dVertex
 10
7575110.12000000011
 20
5727759.11000000034
  0
VERTEX
  5
61
100
AcDbEntity
  8
ewns_dzialki
100
AcDbVertex
100
AcDb2dVertex
 10
7575105.1799999997
 20
5727780.34999999963
  0
VERTEX
  5
62
100
AcDbEntity
  8
ewns_dzialki
100
AcDbVertex
100
AcDb2dVertex
 10
7575220.0700000003
 20
5727812.1799999997
  0
VERTEX
  5
63
100
AcDbEntity
  8
ewns_dzialki
100
AcDbVertex
100
AcDb2dVertex
 10
7575217.90000000037
 20
5727789.20999999996
  0
SEQEND
  5
64
100
AcDbEntity
  8
ewns_dzialki
  0
POLYLINE
  5
65
100
AcDbEntity
  8
ewns_dzialki
  6
CONTINUOUS
370
18
100
AcDb2dPolyline
 66
1
 70
129
  0
VERTEX
  5
66
100
AcDbEntity
  8
ewns_dzialki
100
AcDbVertex
100
AcDb2dVertex
 10
7575232.49000000022
 20
5727815.95999999996
  0
VERTEX
  5
67
100
AcDbEntity
  8
ewns_dzialki
100
AcDbVertex
100
AcDb2dVertex
 10
7575339.78000000026
 20
5727840.91000000015
  0
VERTEX
  5
68
100
AcDbEntity
  8
ewns_dzialki
100
AcDbVertex
100
AcDb2dVertex
 10
7575347.69000000041
 20
5727812.53000000026
  0
VERTEX
  5
69
100
AcDbEntity
  8
ewns_dzialki
100
AcDbVertex
100
AcDb2dVertex
 10
7575448.78000000026
 20
5727836.65000000037
  0
VERTEX
  5
6A
100
AcDbEntity
  8
ewns_dzialki
100
AcDbVertex
100
AcDb2dVertex
 10
7575440.69000000041
 20
5727864.37999999989
  0
VERTEX
  5
6B
100
AcDbEntity
  8
ewns_dzialki
100
AcDbVertex
100
AcDb2dVertex
 10
7575592.61000000034
 20
5727899.70999999996
  0
VERTEX
  5
6C
100
AcDbEntity
  8
ewns_dzialki
100
AcDbVertex
100
AcDb2dVertex
 10
7575585.09999999963
 20
5727873.80999999959
  0
VERTEX
  5
6D
100
AcDbEntity
  8
ewns_dzialki
100
AcDbVertex
100
AcDb2dVertex
 10
7575582.76999999955
 20
5727844.36000000034
  0
VERTEX
  5
6E
100
AcDbEntity
  8
ewns_dzialki
100
AcDbVertex
100
AcDb2dVertex
 10
7575267.05999999959
 20
5727768.08999999985
  0
VERTEX
  5
6F
100
AcDbEntity
  8
ewns_dzialki
100
AcDbVertex
100
AcDb2dVertex
 10
7575258.3200000003
 20
5727798.20999999996
  0
VERTEX
  5
70
100
AcDbEntity
  8
ewns_dzialki
100
AcDbVertex
100
AcDb2dVertex
 10
7575230.20999999996
 20
5727791.95000000019
  0
SEQEND
  5
71
100
AcDbEntity
  8
ewns_dzialki
  0
POLYLINE
  5
72
100
AcDbEntity
  8
ewns_dzialki
  6
CONTINUOUS
370
18
100
AcDb2dPolyline
 66
1
 70
129
  0
VERTEX
  5
73
100
AcDbEntity
  8
ewns_dzialki
100
AcDbVertex
100
AcDb2dVertex
 10
7575110.12000000011
 20
5727759.11000000034
  0
VERTEX
  5
74
100
AcDbEntity
  8
ewns_dzialki
100
AcDbVertex
100
AcDb2dVertex
 10
7575114.63999999966
 20
5727739.62999999989
  0
VERTEX
  5
75
100
AcDbEntity
  8
ewns_dzialki
100
AcDbVertex
100
AcDb2dVertex
 10
7575201.08999999985
 20
5727760.8200000003
  0
VERTEX
  5
76
100
AcDbEntity
  8
ewns_dzialki
100
AcDbVertex
100
AcDb2dVertex
 10
7575168.25999999978
 20
5727705.33999999985
  0
VERTEX
  5
77
100
AcDbEntity
  8
ewns_dzialki
100
AcDbVertex
100
AcDb2dVertex
 10
7575060.90000000037
 20
5727681.98000000045
  0
VERTEX
  5
78
100
AcDbEntity
  8
ewns_dzialki
100
AcDbVertex
100
AcDb2dVertex
 10
7575075.38999999966
 20
5727708.9299999997
  0
VERTEX
  5
79
100
AcDbEntity
  8
ewns_dzialki
100
AcDbVertex
100
AcDb2dVertex
 10
7574924.73000000045
 20
5727671.66999999993
  0
VERTEX
  5
7A
100
AcDbEntity
  8
ewns_dzialki
100
AcDbVertex
100
AcDb2dVertex
 10
7574912.4299999997
 20
5727720.05999999959
  0
VERTEX
  5
7B
100
AcDbEntity
  8
ewns_dzialki
100
AcDbVertex
100
AcDb2dVertex
 10
7574903.21999999974
 20
5727756.29000000004
  0
VERTEX
  5
7C
100
AcDbEntity
  8
ewns_dzialki
100
AcDbVertex
100
AcDb2dVertex
 10
7575099.8200000003
 20
5727803.4299999997
  0
VERTEX
  5
7D
100
AcDbEntity
  8
ewns_dzialki
100
AcDbVertex
100
AcDb2dVertex
 10
7575105.1799999997
 20
5727780.34999999963
  0
SEQEND
  5
7E
100
AcDbEntity
  8
ewns_dzialki
  0
POLYLINE
  5
7F
100
AcDbEntity
  8
ewns_dzialki
  6
CONTINUOUS
370
18
100
AcDb2dPolyline
 66
1
 70
129
  0
VERTEX
  5
80
100
AcDbEntity
  8
ewns_dzialki
100
AcDbVertex
100
AcDb2dVertex
 10
7575230.20999999996
 20
5727791.95000000019
  0
VERTEX
  5
81
100
AcDbEntity
  8
ewns_dzialki
100
AcDbVertex
100
AcDb2dVertex
 10
7575258.3200000003
 20
5727798.20999999996
  0
VERTEX
  5
82
100
AcDbEntity
  8
ewns_dzialki
100
AcDbVertex
100
AcDb2dVertex
 10
7575267.05999999959
 20
5727768.08999999985
  0
VERTEX
  5
83
100
AcDbEntity
  8
ewns_dzialki
100
AcDbVertex
100
AcDb2dVertex
 10
7575267.36000000034
 20
5727753.78000000026
  0
VERTEX
  5
84
100
AcDbEntity
  8
ewns_dzialki
100
AcDbVertex
100
AcDb2dVertex
 10
7575253.20000000019
 20
5727750.49000000022
  0
VERTEX
  5
85
100
AcDbEntity
  8
ewns_dzialki
100
AcDbVertex
100
AcDb2dVertex
 10
7575238.29000000004
 20
5727747.40000000037
  0
VERTEX
  5
86
100
AcDbEntity
  8
ewns_dzialki
100
AcDbVertex
100
AcDb2dVertex
 10
7575201.05999999959
 20
5727739.15000000037
  0
VERTEX
  5
87
100
AcDbEntity
  8
ewns_dzialki
100
AcDbVertex
100
AcDb2dVertex
 10
7575229.83999999985
 20
5727788.08000000007
  0
SEQEND
  5
88
100
AcDbEntity
  8
ewns_dzialki
  0
HATCH
  5
89
100
AcDbEntity
  8
ewns_dzialki
  6
CONTINUOUS
420
15787660
370
18
100
AcDbHatch
 10
0.0
 20
0.0
 30
0.0
210
0.0
220
0.0
230
1.0
  2
SOLID
 70
1
 71
1
 91
1
 92
3
 72
0
 73
1
 93
8
 10
7575230.20999999996
 20
5727791.95000000019
 10
7575258.3200000003
 20
5727798.20999999996
 10
7575267.05999999959
 20
5727768.08999999985
 10
7575267.36000000034
 20
5727753.78000000026
 10
7575253.20000000019
 20
5727750.49000000022
 10
7575238.29000000004
 20
5727747.40000000037
 10
7575201.05999999959
 20
5727739.15000000037
 10
7575229.83999999985
 20
5727788.08000000007
 97
0
 75
0
 76
1
 98
0
  0
POLYLINE
  5
8A
100
AcDbEntity
  8
ewns_dzialki
  6
CONTINUOUS
370
18
100
AcDb2dPolyline
 66
1
 70
129
  0
VERTEX
  5
8B
100
AcDbEntity
  8
ewns_dzialki
100
AcDbVertex
100
AcDb2dVertex
 10
7575148.73000000045
 20
5727648.76999999955
  0
VERTEX
  5
8C
100
AcDbEntity
  8
ewns_dzialki
100
AcDbVertex
100
AcDb2dVertex
 10
7575165.98000000045
 20
5727677.9299999997
  0
VERTEX
  5
8D
100
AcDbEntity
  8
ewns_dzialki
100
AcDbVertex
100
AcDb2dVertex
 10
7575577.48000000045
 20
5727777.45999999996
  0
VERTEX
  5
8E
100
AcDbEntity
  8
ewns_dzialki
100
AcDbVertex
100
AcDb2dVertex
 10
7575575.51999999955
 20
5727752.62000000011
  0
SEQEND
  5
8F
100
AcDbEntity
  8
ewns_dzialki
  0
POLYLINE
  5
90
100
AcDbEntity
  8
ewns_dzialki
  6
CONTINUOUS
370
18
100
AcDb2dPolyline
 66
1
 70
129
  0
VERTEX
  5
91
100
AcDbEntity
  8
ewns_dzialki
100
AcDbVertex
100
AcDb2dVertex
 10
7575165.98000000045
 20
5727677.9299999997
  0
VERTEX
  5
92
100
AcDbEntity
  8
ewns_dzialki
100
AcDbVertex
100
AcDb2dVertex
 10
7575175.79999999981
 20
5727694.54999999981
  0
VERTEX
  5
93
100
AcDbEntity
  8
ewns_dzialki
100
AcDbVertex
100
AcDb2dVertex
 10
7575578.48000000045
 20
5727790.04999999981
  0
VERTEX
  5
94
100
AcDbEntity
  8
ewns_dzialki
100
AcDbVertex
100
AcDb2dVertex
 10
7575577.48000000045
 20
5727777.45999999996
  0
SEQEND
  5
95
100
AcDbEntity
  8
ewns_dzialki
  0
POLYLINE
  5
96
100
AcDbEntity
  8
ewns_dzialki
  6
CONTINUOUS
370
18
100
AcDb2dPolyline
 66
1
 70
129
  0
VERTEX
  5
97
100
AcDbEntity
  8
ewns_dzialki
100
AcDbVertex
100
AcDb2dVertex
 10
7575268.66999999993
 20
5728441.79000000004
  0
VERTEX
  5
98
100
AcDbEntity
  8
ewns_dzialki
100
AcDbVertex
100
AcDb2dVertex
 10
7575270.95000000019
 20
5728441.66000000015
  0
VERTEX
  5
99
100
AcDbEntity
  8
ewns_dzialki
100
AcDbVertex
100
AcDb2dVertex
 10
7575280.70000000019
 20
5728441.09999999963
  0
VERTEX
  5
9A
100
AcDbEntity
  8
ewns_dzialki
100
AcDbVertex
100
AcDb2dVertex
 10
7575280.41000000015
 20
5728439.11000000034
  0
VERTEX
  5
9B
100
AcDbEntity
  8
ewns_dzialki
100
AcDbVertex
100
AcDb2dVertex
 10
7575277.79999999981
 20
5728421.12000000011
  0
VERTEX
  5
9C
100
AcDbEntity
  8
ewns_dzialki
100
AcDbVertex
100
AcDb2dVertex
 10
7575278.45000000019
 20
5728392.45000000019
  0
VERTEX
  5
9D
100
AcDbEntity
  8
ewns_dzialki
100
AcDbVertex
100
AcDb2dVertex
 10
7575279.25999999978
 20
5728352.40000000037
  0
VERTEX
  5
9E
100
AcDbEntity
  8
ewns_dzialki
100
AcDbVertex
100
AcDb2dVertex
 10
7575279.71999999974
 20
5728333.40000000037
  0
VERTEX
  5
9F
100
AcDbEntity
  8
ewns_dzialki
100
AcDbVertex
100
AcDb2dVertex
 10
7575280.87000000011
 20
5728286.19000000041
  0
VERTEX
  5
A0
100
AcDbEntity
  8
ewns_dzialki
100
AcDbVertex
100
AcDb2dVertex
 10
7575281.15000000037
 20
5728274.15000000037
  0
VERTEX
  5
A1
100
AcDbEntity
  8
ewns_dzialki
100
AcDbVertex
100
AcDb2dVertex
 10
7575279.51999999955
 20
5728262.66000000015
  0
VERTEX
  5
A2
100
AcDbEntity
  8
ewns_dzialki
100
AcDbVertex
100
AcDb2dVertex
 10
7575279.08000000007
 20
5728258.11000000034
  0
VERTEX
  5
A3
100
AcDbEntity
  8
ewns_dzialki
100
AcDbVertex
100
AcDb2dVertex
 10
7575270.04000000004
 20
5728206.79999999981
  0
VERTEX
  5
A4
100
AcDbEntity
  8
ewns_dzialki
100
AcDbVertex
100
AcDb2dVertex
 10
7575267.11000000034
 20
5728192.80999999959
  0
VERTEX
  5
A5
100
AcDbEntity
  8
ewns_dzialki
100
AcDbVertex
100
AcDb2dVertex
 10
7575262.65000000037
 20
5728159.08999999985
  0
VERTEX
  5
A6
100
AcDbEntity
  8
ewns_dzialki
100
AcDbVertex
100
AcDb2dVertex
 10
7575262.04000000004
 20
5728153.95999999996
  0
VERTEX
  5
A7
100
AcDbEntity
  8
ewns_dzialki
100
AcDbVertex
100
AcDb2dVertex
 10
7575259.20999999996
 20
5728115.49000000022
  0
VERTEX
  5
A8
100
AcDbEntity
  8
ewns_dzialki
100
AcDbVertex
100
AcDb2dVertex
 10
7575257.83000000007
 20
5728093.99000000022
  0
VERTEX
  5
A9
100
AcDbEntity
  8
ewns_dzialki
100
AcDbVertex
100
AcDb2dVertex
 10
7575256.41000000015
 20
5728072.48000000045
  0
VERTEX
  5
AA
100
AcDbEntity
  8
ewns_dzialki
100
AcDbVertex
100
AcDb2dVertex
 10
7575254.65000000037
 20
5728050.21999999974
  0
VERTEX
  5
AB
100
AcDbEntity
  8
ewns_dzialki
100
AcDbVertex
100
AcDb2dVertex
 10
7575252.28000000026
 20
5728024.8200000003
  0
VERTEX
  5
AC
100
AcDbEntity
  8
ewns_dzialki
100
AcDbVertex
100
AcDb2dVertex
 10
7575249.90000000037
 20
5727999.78000000026
  0
VERTEX
  5
AD
100
AcDbEntity
  8
ewns_dzialki
100
AcDbVertex
100
AcDb2dVertex
 10
7575248.76999999955
 20
5727987.5700000003
  0
VERTEX
  5
AE
100
AcDbEntity
  8
ewns_dzialki
100
AcDbVertex
100
AcDb2dVertex
 10
7575245.37999999989
 20
5727950.63999999966
  0
VERTEX
  5
AF
100
AcDbEntity
  8
ewns_dzialki
100
AcDbVertex
100
AcDb2dVertex
 10
7575241.70000000019
 20
5727913.24000000022
  0
VERTEX
  5
B0
100
AcDbEntity
  8
ewns_dzialki
100
AcDbVertex
100
AcDb2dVertex
 10
7575237.09999999963
 20
5727864.59999999963
  0
VERTEX
  5
B1
100
AcDbEntity
  8
ewns_dzialki
100
AcDbVertex
100
AcDb2dVertex
 10
7575234.79000000004
 20
5727840.28000000026
  0
VERTEX
  5
B2
100
AcDbEntity
  8
ewns_dzialki
100
AcDbVertex
100
AcDb2dVertex
 10
7575232.49000000022
 20
5727815.95999999996
  0
VERTEX
  5
B3
100
AcDbEntity
  8
ewns_dzialki
100
AcDbVertex
100
AcDb2dVertex
 10
7575230.20999999996
 20
5727791.95000000019
  0
VERTEX
  5
B4
100
AcDbEntity
  8
ewns_dzialki
100
AcDbVertex
100
AcDb2dVertex
 10
7575229.83999999985
 20
5727788.08000000007
  0
VERTEX
  5
B5
100
AcDbEntity
  8
ewns_dzialki
100
AcDbVertex
100
AcDb2dVertex
 10
7575201.05999999959
 20
5727739.15000000037
  0
VERTEX
  5
B6
100
AcDbEntity
  8
ewns_dzialki
100
AcDbVertex
100
AcDb2dVertex
 10
7575175.79999999981
 20
5727694.54999999981
  0
VERTEX
  5
B7
100
AcDbEntity
  8
ewns_dzialki
100
AcDbVertex
100
AcDb2dVertex
 10
7575165.98000000045
 20
5727677.9299999997
  0
VERTEX
  5
B8
100
AcDbEntity
  8
ewns_dzialki
100
AcDbVertex
100
AcDb2dVertex
 10
7575148.73000000045
 20
5727648.76999999955
  0
VERTEX
  5
B9
100
AcDbEntity
  8
ewns_dzialki
100
AcDbVertex
100
AcDb2dVertex
 10
7575144.74000000022
 20
5727642.04000000004
  0
VERTEX
  5
BA
100
AcDbEntity
  8
ewns_dzialki
100
AcDbVertex
100
AcDb2dVertex
 10
7575138.05999999959
 20
5727607.25
  0
VERTEX
  5
BB
100
AcDbEntity
  8
ewns_dzialki
100
AcDbVertex
100
AcDb2dVertex
 10
7575130.69000000041
 20
5727568.80999999959
  0
VERTEX
  5
BC
100
AcDbEntity
  8
ewns_dzialki
100
AcDbVertex
100
AcDb2dVertex
 10
7575125.4299999997
 20
5727541.40000000037
  0
VERTEX
  5
BD
100
AcDbEntity
  8
ewns_dzialki
100
AcDbVertex
100
AcDb2dVertex
 10
7575121.15000000037
 20
5727527.66999999993
  0
VERTEX
  5
BE
100
AcDbEntity
  8
ewns_dzialki
100
AcDbVertex
100
AcDb2dVertex
 10
7575099.29000000004
 20
5727457.46999999974
  0
VERTEX
  5
BF
100
AcDbEntity
  8
ewns_dzialki
100
AcDbVertex
100
AcDb2dVertex
 10
7575086.8200000003
 20
5727417.41000000015
  0
VERTEX
  5
C0
100
AcDbEntity
  8
ewns_dzialki
100
AcDbVertex
100
AcDb2dVertex
 10
7575084.58000000007
 20
5727410.20000000019
  0
VERTEX
  5
C1
100
AcDbEntity
  8
ewns_dzialki
100
AcDbVertex
100
AcDb2dVertex
 10
7575076.76999999955
 20
5727385.16000000015
  0
VERTEX
  5
C2
100
AcDbEntity
  8
ewns_dzialki
100
AcDbVertex
100
AcDb2dVertex
 10
7575074.95999999996
 20
5727379.33999999985
  0
VERTEX
  5
C3
100
AcDbEntity
  8
ewns_dzialki
100
AcDbVertex
100
AcDb2dVertex
 10
7575071.91999999992
 20
5727369.61000000034
  0
VERTEX
  5
C4
100
AcDbEntity
  8
ewns_dzialki
100
AcDbVertex
100
AcDb2dVertex
 10
7575063.48000000045
 20
5727342.53000000026
  0
VERTEX
  5
C5
100
AcDbEntity
  8
ewns_dzialki
100
AcDbVertex
100
AcDb2dVertex
 10
7575061.88999999966
 20
5727337.41000000015
  0
VERTEX
  5
C6
100
AcDbEntity
  8
ewns_dzialki
100
AcDbVertex
100
AcDb2dVertex
 10
7575061.86000000034
 20
5727335.49000000022
  0
VERTEX
  5
C7
100
AcDbEntity
  8
ewns_dzialki
100
AcDbVertex
100
AcDb2dVertex
 10
7575060.87999999989
 20
5727260.45999999996
  0
VERTEX
  5
C8
100
AcDbEntity
  8
ewns_dzialki
100
AcDbVertex
100
AcDb2dVertex
 10
7575061.94000000041
 20
5727242.04999999981
  0
VERTEX
  5
C9
100
AcDbEntity
  8
ewns_dzialki
100
AcDbVertex
100
AcDb2dVertex
 10
7575063.71999999974
 20
5727225.16000000015
  0
VERTEX
  5
CA
100
AcDbEntity
  8
ewns_dzialki
100
AcDbVertex
100
AcDb2dVertex
 10
7575067.29000000004
 20
5727206.74000000022
  0
VERTEX
  5
CB
100
AcDbEntity
  8
ewns_dzialki
100
AcDbVertex
100
AcDb2dVertex
 10
7575072.37999999989
 20
5727180.33999999985
  0
VERTEX
  5
CC
100
AcDbEntity
  8
ewns_dzialki
100
AcDbVertex
100
AcDb2dVertex
 10
7575079.15000000037
 20
5727145.33999999985
  0
VERTEX
  5
CD
100
AcDbEntity
  8
ewns_dzialki
100
AcDbVertex
100
AcDb2dVertex
 10
7575088.90000000037
 20
5727104.66999999993
  0
VERTEX
  5
CE
100
AcDbEntity
  8
ewns_dzialki
100
AcDbVertex
100
AcDb2dVertex
 10
7575089.70000000019
 20
5727101.3200000003
  0
VERTEX
  5
CF
100
AcDbEntity
  8
ewns_dzialki
100
AcDbVertex
100
AcDb2dVertex
 10
7575093.12000000011
 20
5727087.01999999955
  0
VERTEX
  5
D0
100
AcDbEntity
  8
ewns_dzialki
100
AcDbVertex
100
AcDb2dVertex
 10
7575094.36000000034
 20
5727081.87000000011
  0
VERTEX
  5
D1
100
AcDbEntity
  8
ewns_dzialki
100
AcDbVertex
100
AcDb2dVertex
 10
7575106.37999999989
 20
5727031.62000000011
  0
VERTEX
  5
D2
100
AcDbEntity
  8
ewns_dzialki
100
AcDbVertex
100
AcDb2dVertex
 10
7575110.88999999966
 20
5727017.6799999997
  0
VERTEX
  5
D3
100
AcDbEntity
  8
ewns_dzialki
100
AcDbVertex
100
AcDb2dVertex
 10
7575132.33000000007
 20
5726948.83000000007
  0
VERTEX
  5
D4
100
AcDbEntity
  8
ewns_dzialki
100
AcDbVertex
100
AcDb2dVertex
 10
7575136.54000000004
 20
5726935.40000000037
  0
VERTEX
  5
D5
100
AcDbEntity
  8
ewns_dzialki
100
AcDbVertex
100
AcDb2dVertex
 10
7575162.63999999966
 20
5726860.5700000003
  0
VERTEX
  5
D6
100
AcDbEntity
  8
ewns_dzialki
100
AcDbVertex
100
AcDb2dVertex
 10
7575179.5700000003
 20
5726814.08999999985
  0
VERTEX
  5
D7
100
AcDbEntity
  8
ewns_dzialki
100
AcDbVertex
100
AcDb2dVertex
 10
7575199.4299999997
 20
5726759.5700000003
  0
VERTEX
  5
D8
100
AcDbEntity
  8
ewns_dzialki
100
AcDbVertex
100
AcDb2dVertex
 10
7575209.69000000041
 20
5726731.41000000015
  0
VERTEX
  5
D9
100
AcDbEntity
  8
ewns_dzialki
100
AcDbVertex
100
AcDb2dVertex
 10
7575213.73000000045
 20
5726720.30999999959
  0
VERTEX
  5
DA
100
AcDbEntity
  8
ewns_dzialki
100
AcDbVertex
100
AcDb2dVertex
 10
7575223.01999999955
 20
5726694.8200000003
  0
VERTEX
  5
DB
100
AcDbEntity
  8
ewns_dzialki
100
AcDbVertex
100
AcDb2dVertex
 10
7575236.16999999993
 20
5726658.70999999996
  0
VERTEX
  5
DC
100
AcDbEntity
  8
ewns_dzialki
100
AcDbVertex
100
AcDb2dVertex
 10
7575249.36000000034
 20
5726622.5
  0
VERTEX
  5
DD
100
AcDbEntity
  8
ewns_dzialki
100
AcDbVertex
100
AcDb2dVertex
 10
7575263.48000000045
 20
5726583.71999999974
  0
VERTEX
  5
DE
100
AcDbEntity
  8
ewns_dzialki
100
AcDbVertex
100
AcDb2dVertex
 10
7575276.38999999966
 20
5726548.19000000041
  0
VERTEX
  5
DF
100
AcDbEntity
  8
ewns_dzialki
100
AcDbVertex
100
AcDb2dVertex
 10
7575280.29999999981
 20
5726538.53000000026
  0
VERTEX
  5
E0
100
AcDbEntity
  8
ewns_dzialki
100
AcDbVertex
100
AcDb2dVertex
 10
7575290.83000000007
 20
5726512.48000000045
  0
VERTEX
  5
E1
100
AcDbEntity
  8
ewns_dzialki
100
AcDbVertex
100
AcDb2dVertex
 10
7575299.38999999966
 20
5726491.29999999981
  0
VERTEX
  5
E2
100
AcDbEntity
  8
ewns_dzialki
100
AcDbVertex
100
AcDb2dVertex
 10
7575310.84999999963
 20
5726462.95000000019
  0
VERTEX
  5
E3
100
AcDbEntity
  8
ewns_dzialki
100
AcDbVertex
100
AcDb2dVertex
 10
7575321.5700000003
 20
5726436.3200000003
  0
VERTEX
  5
E4
100
AcDbEntity
  8
ewns_dzialki
100
AcDbVertex
100
AcDb2dVertex
 10
7575323.29000000004
 20
5726432.08000000007
  0
VERTEX
  5
E5
100
AcDbEntity
  8
ewns_dzialki
100
AcDbVertex
100
AcDb2dVertex
 10
7575331.46999999974
 20
5726411.91999999993
  0
VERTEX
  5
E6
100
AcDbEntity
  8
ewns_dzialki
100
AcDbVertex
100
AcDb2dVertex
 10
7575356.30999999959
 20
5726324.83000000007
  0
VERTEX
  5
E7
100
AcDbEntity
  8
ewns_dzialki
100
AcDbVertex
100
AcDb2dVertex
 10
7575377.33000000007
 20
5726249.37000000011
  0
VERTEX
  5
E8
100
AcDbEntity
  8
ewns_dzialki
100
AcDbVertex
100
AcDb2dVertex
 10
7575405.50999999978
 20
5726155.95000000019
  0
VERTEX
  5
E9
100
AcDbEntity
  8
ewns_dzialki
100
AcDbVertex
100
AcDb2dVertex
 10
7575395.25999999978
 20
5726148.16000000015
  0
VERTEX
  5
EA
100
AcDbEntity
  8
ewns_dzialki
100
AcDbVertex
100
AcDb2dVertex
 10
7575384.24000000022
 20
5726184.91000000015
  0
VERTEX
  5
EB
100
AcDbEntity
  8
ewns_dzialki
100
AcDbVertex
100
AcDb2dVertex
 10
7575379.25999999978
 20
5726201.4299999997
  0
VERTEX
  5
EC
100
AcDbEntity
  8
ewns_dzialki
100
AcDbVertex
100
AcDb2dVertex
 10
7575374.65000000037
 20
5726216.70000000019
  0
VERTEX
  5
ED
100
AcDbEntity
  8
ewns_dzialki
100
AcDbVertex
100
AcDb2dVertex
 10
7575369.26999999955
 20
5726234.54000000004
  0
VERTEX
  5
EE
100
AcDbEntity
  8
ewns_dzialki
100
AcDbVertex
100
AcDb2dVertex
 10
7575365.80999999959
 20
5726246.03000000026
  0
VERTEX
  5
EF
100
AcDbEntity
  8
ewns_dzialki
100
AcDbVertex
100
AcDb2dVertex
 10
7575346.55999999959
 20
5726315.12000000011
  0
VERTEX
  5
F0
100
AcDbEntity
  8
ewns_dzialki
100
AcDbVertex
100
AcDb2dVertex
 10
7575344.75999999978
 20
5726321.58000000007
  0
VERTEX
  5
F1
100
AcDbEntity
  8
ewns_dzialki
100
AcDbVertex
100
AcDb2dVertex
 10
7575343.00999999978
 20
5726327.73000000045
  0
VERTEX
  5
F2
100
AcDbEntity
  8
ewns_dzialki
100
AcDbVertex
100
AcDb2dVertex
 10
7575320.11000000034
 20
5726408.00999999978
  0
VERTEX
  5
F3
100
AcDbEntity
  8
ewns_dzialki
100
AcDbVertex
100
AcDb2dVertex
 10
7575313.76999999955
 20
5726423.65000000037
  0
VERTEX
  5
F4
100
AcDbEntity
  8
ewns_dzialki
100
AcDbVertex
100
AcDb2dVertex
 10
7575301.84999999963
 20
5726453.00999999978
  0
VERTEX
  5
F5
100
AcDbEntity
  8
ewns_dzialki
100
AcDbVertex
100
AcDb2dVertex
 10
7575277.95999999996
 20
5726512.30999999959
  0
VERTEX
  5
F6
100
AcDbEntity
  8
ewns_dzialki
100
AcDbVertex
100
AcDb2dVertex
 10
7575265.19000000041
 20
5726543.88999999966
  0
VERTEX
  5
F7
100
AcDbEntity
  8
ewns_dzialki
100
AcDbVertex
100
AcDb2dVertex
 10
7575258.70999999996
 20
5726561.69000000041
  0
VERTEX
  5
F8
100
AcDbEntity
  8
ewns_dzialki
100
AcDbVertex
100
AcDb2dVertex
 10
7575254.04999999981
 20
5726574.5
  0
VERTEX
  5
F9
100
AcDbEntity
  8
ewns_dzialki
100
AcDbVertex
100
AcDb2dVertex
 10
7575242.8200000003
 20
5726605.33000000007
  0
VERTEX
  5
FA
100
AcDbEntity
  8
ewns_dzialki
100
AcDbVertex
100
AcDb2dVertex
 10
7575235.45999999996
 20
5726625.55999999959
  0
VERTEX
  5
FB
100
AcDbEntity
  8
ewns_dzialki
100
AcDbVertex
100
AcDb2dVertex
 10
7575231.83000000007
 20
5726635.54000000004
  0
VERTEX
  5
FC
100
AcDbEntity
  8
ewns_dzialki
100
AcDbVertex
100
AcDb2dVertex
 10
7575224.45999999996
 20
5726655.79000000004
  0
VERTEX
  5
FD
100
AcDbEntity
  8
ewns_dzialki
100
AcDbVertex
100
AcDb2dVertex
 10
7575215.54000000004
 20
5726680.28000000026
  0
VERTEX
  5
FE
100
AcDbEntity
  8
ewns_dzialki
100
AcDbVertex
100
AcDb2dVertex
 10
7575206.41000000015
 20
5726705.37000000011
  0
VERTEX
  5
FF
100
AcDbEntity
  8
ewns_dzialki
100
AcDbVertex
100
AcDb2dVertex
 10
7575192.8200000003
 20
5726742.71999999974
  0
VERTEX
  5
100
100
AcDbEntity
  8
ewns_dzialki
100
AcDbVertex
100
AcDb2dVertex
 10
7575189.41999999993
 20
5726752.05999999959
  0
VERTEX
  5
101
100
AcDbEntity
  8
ewns_dzialki
100
AcDbVertex
100
AcDb2dVertex
 10
7575174.69000000041
 20
5726792.51999999955
  0
VERTEX
  5
102
100
AcDbEntity
  8
ewns_dzialki
100
AcDbVertex
100
AcDb2dVertex
 10
7575169.5
 20
5726806.78000000026
  0
VERTEX
  5
103
100
AcDbEntity
  8
ewns_dzialki
100
AcDbVertex
100
AcDb2dVertex
 10
7575149.0
 20
5726863.11000000034
  0
VERTEX
  5
104
100
AcDbEntity
  8
ewns_dzialki
100
AcDbVertex
100
AcDb2dVertex
 10
7575146.71999999974
 20
5726869.78000000026
  0
VERTEX
  5
105
100
AcDbEntity
  8
ewns_dzialki
100
AcDbVertex
100
AcDb2dVertex
 10
7575139.16999999993
 20
5726890.99000000022
  0
VERTEX
  5
106
100
AcDbEntity
  8
ewns_dzialki
100
AcDbVertex
100
AcDb2dVertex
 10
7575139.0
 20
5726891.49000000022
  0
VERTEX
  5
107
100
AcDbEntity
  8
ewns_dzialki
100
AcDbVertex
100
AcDb2dVertex
 10
7575128.23000000045
 20
5726922.04000000004
  0
VERTEX
  5
108
100
AcDbEntity
  8
ewns_dzialki
100
AcDbVertex
100
AcDb2dVertex
 10
7575120.65000000037
 20
5726946.16000000015
  0
VERTEX
  5
109
100
AcDbEntity
  8
ewns_dzialki
100
AcDbVertex
100
AcDb2dVertex
 10
7575108.23000000045
 20
5726985.71999999974
  0
VERTEX
  5
10A
100
AcDbEntity
  8
ewns_dzialki
100
AcDbVertex
100
AcDb2dVertex
 10
7575099.25
 20
5727014.30999999959
  0
VERTEX
  5
10B
100
AcDbEntity
  8
ewns_dzialki
100
AcDbVertex
100
AcDb2dVertex
 10
7575094.80999999959
 20
5727028.41999999993
  0
VERTEX
  5
10C
100
AcDbEntity
  8
ewns_dzialki
100
AcDbVertex
100
AcDb2dVertex
 10
7575088.34999999963
 20
5727055.4299999997
  0
VERTEX
  5
10D
100
AcDbEntity
  8
ewns_dzialki
100
AcDbVertex
100
AcDb2dVertex
 10
7575080.83000000007
 20
5727086.80999999959
  0
VERTEX
  5
10E
100
AcDbEntity
  8
ewns_dzialki
100
AcDbVertex
100
AcDb2dVertex
 10
7575077.58999999985
 20
5727100.33000000007
  0
VERTEX
  5
10F
100
AcDbEntity
  8
ewns_dzialki
100
AcDbVertex
100
AcDb2dVertex
 10
7575074.96999999974
 20
5727111.26999999955
  0
VERTEX
  5
110
100
AcDbEntity
  8
ewns_dzialki
100
AcDbVertex
100
AcDb2dVertex
 10
7575074.84999999963
 20
5727111.75999999978
  0
VERTEX
  5
111
100
AcDbEntity
  8
ewns_dzialki
100
AcDbVertex
100
AcDb2dVertex
 10
7575072.24000000022
 20
5727122.69000000041
  0
VERTEX
  5
112
100
AcDbEntity
  8
ewns_dzialki
100
AcDbVertex
100
AcDb2dVertex
 10
7575071.84999999963
 20
5727124.30999999959
  0
VERTEX
  5
113
100
AcDbEntity
  8
ewns_dzialki
100
AcDbVertex
100
AcDb2dVertex
 10
7575067.34999999963
 20
5727143.09999999963
  0
VERTEX
  5
114
100
AcDbEntity
  8
ewns_dzialki
100
AcDbVertex
100
AcDb2dVertex
 10
7575064.19000000041
 20
5727159.53000000026
  0
VERTEX
  5
115
100
AcDbEntity
  8
ewns_dzialki
100
AcDbVertex
100
AcDb2dVertex
 10
7575059.36000000034
 20
5727184.46999999974
  0
VERTEX
  5
116
100
AcDbEntity
  8
ewns_dzialki
100
AcDbVertex
100
AcDb2dVertex
 10
7575058.09999999963
 20
5727190.99000000022
  0
VERTEX
  5
117
100
AcDbEntity
  8
ewns_dzialki
100
AcDbVertex
100
AcDb2dVertex
 10
7575054.63999999966
 20
5727208.91999999993
  0
VERTEX
  5
118
100
AcDbEntity
  8
ewns_dzialki
100
AcDbVertex
100
AcDb2dVertex
 10
7575050.63999999966
 20
5727229.62999999989
  0
VERTEX
  5
119
100
AcDbEntity
  8
ewns_dzialki
100
AcDbVertex
100
AcDb2dVertex
 10
7575048.83999999985
 20
5727257.62999999989
  0
VERTEX
  5
11A
100
AcDbEntity
  8
ewns_dzialki
100
AcDbVertex
100
AcDb2dVertex
 10
7575049.16000000015
 20
5727281.62999999989
  0
VERTEX
  5
11B
100
AcDbEntity
  8
ewns_dzialki
100
AcDbVertex
100
AcDb2dVertex
 10
7575049.41999999993
 20
5727301.62000000011
  0
VERTEX
  5
11C
100
AcDbEntity
  8
ewns_dzialki
100
AcDbVertex
100
AcDb2dVertex
 10
7575049.70000000019
 20
5727323.41999999993
  0
VERTEX
  5
11D
100
AcDbEntity
  8
ewns_dzialki
100
AcDbVertex
100
AcDb2dVertex
 10
7575051.70000000019
 20
5727345.04000000004
  0
VERTEX
  5
11E
100
AcDbEntity
  8
ewns_dzialki
100
AcDbVertex
100
AcDb2dVertex
 10
7575070.11000000034
 20
5727404.12999999989
  0
VERTEX
  5
11F
100
AcDbEntity
  8
ewns_dzialki
100
AcDbVertex
100
AcDb2dVertex
 10
7575073.5
 20
5727415.01999999955
  0
VERTEX
  5
120
100
AcDbEntity
  8
ewns_dzialki
100
AcDbVertex
100
AcDb2dVertex
 10
7575080.50999999978
 20
5727437.54999999981
  0
VERTEX
  5
121
100
AcDbEntity
  8
ewns_dzialki
100
AcDbVertex
100
AcDb2dVertex
 10
7575093.6799999997
 20
5727479.8200000003
  0
VERTEX
  5
122
100
AcDbEntity
  8
ewns_dzialki
100
AcDbVertex
100
AcDb2dVertex
 10
7575103.75999999978
 20
5727513.00999999978
  0
VERTEX
  5
123
100
AcDbEntity
  8
ewns_dzialki
100
AcDbVertex
100
AcDb2dVertex
 10
7575113.76999999955
 20
5727544.33000000007
  0
VERTEX
  5
124
100
AcDbEntity
  8
ewns_dzialki
100
AcDbVertex
100
AcDb2dVertex
 10
7575114.49000000022
 20
5727548.09999999963
  0
VERTEX
  5
125
100
AcDbEntity
  8
ewns_dzialki
100
AcDbVertex
100
AcDb2dVertex
 10
7575119.95999999996
 20
5727576.54999999981
  0
VERTEX
  5
126
100
AcDbEntity
  8
ewns_dzialki
100
AcDbVertex
100
AcDb2dVertex
 10
7575124.76999999955
 20
5727601.65000000037
  0
VERTEX
  5
127
100
AcDbEntity
  8
ewns_dzialki
100
AcDbVertex
100
AcDb2dVertex
 10
7575129.30999999959
 20
5727625.28000000026
  0
VERTEX
  5
128
100
AcDbEntity
  8
ewns_dzialki
100
AcDbVertex
100
AcDb2dVertex
 10
7575133.34999999963
 20
5727646.34999999963
  0
VERTEX
  5
129
100
AcDbEntity
  8
ewns_dzialki
100
AcDbVertex
100
AcDb2dVertex
 10
7575135.48000000045
 20
5727649.95000000019
  0
VERTEX
  5
12A
100
AcDbEntity
  8
ewns_dzialki
100
AcDbVertex
100
AcDb2dVertex
 10
7575151.70000000019
 20
5727677.34999999963
  0
VERTEX
  5
12B
100
AcDbEntity
  8
ewns_dzialki
100
AcDbVertex
100
AcDb2dVertex
 10
7575168.25999999978
 20
5727705.33999999985
  0
VERTEX
  5
12C
100
AcDbEntity
  8
ewns_dzialki
100
AcDbVertex
100
AcDb2dVertex
 10
7575201.08999999985
 20
5727760.8200000003
  0
VERTEX
  5
12D
100
AcDbEntity
  8
ewns_dzialki
100
AcDbVertex
100
AcDb2dVertex
 10
7575217.90000000037
 20
5727789.20999999996
  0
VERTEX
  5
12E
100
AcDbEntity
  8
ewns_dzialki
100
AcDbVertex
100
AcDb2dVertex
 10
7575220.0700000003
 20
5727812.1799999997
  0
VERTEX
  5
12F
100
AcDbEntity
  8
ewns_dzialki
100
AcDbVertex
100
AcDb2dVertex
 10
7575222.00999999978
 20
5727832.59999999963
  0
VERTEX
  5
130
100
AcDbEntity
  8
ewns_dzialki
100
AcDbVertex
100
AcDb2dVertex
 10
7575224.44000000041
 20
5727858.3200000003
  0
VERTEX
  5
131
100
AcDbEntity
  8
ewns_dzialki
100
AcDbVertex
100
AcDb2dVertex
 10
7575228.50999999978
 20
5727901.26999999955
  0
VERTEX
  5
132
100
AcDbEntity
  8
ewns_dzialki
100
AcDbVertex
100
AcDb2dVertex
 10
7575231.4299999997
 20
5727932.01999999955
  0
VERTEX
  5
133
100
AcDbEntity
  8
ewns_dzialki
100
AcDbVertex
100
AcDb2dVertex
 10
7575231.62999999989
 20
5727934.11000000034
  0
VERTEX
  5
134
100
AcDbEntity
  8
ewns_dzialki
100
AcDbVertex
100
AcDb2dVertex
 10
7575234.55999999959
 20
5727965.08000000007
  0
VERTEX
  5
135
100
AcDbEntity
  8
ewns_dzialki
100
AcDbVertex
100
AcDb2dVertex
 10
7575237.79999999981
 20
5727999.20999999996
  0
VERTEX
  5
136
100
AcDbEntity
  8
ewns_dzialki
100
AcDbVertex
100
AcDb2dVertex
 10
7575240.75
 20
5728030.37000000011
  0
VERTEX
  5
137
100
AcDbEntity
  8
ewns_dzialki
100
AcDbVertex
100
AcDb2dVertex
 10
7575242.34999999963
 20
5728047.29000000004
  0
VERTEX
  5
138
100
AcDbEntity
  8
ewns_dzialki
100
AcDbVertex
100
AcDb2dVertex
 10
7575243.41999999993
 20
5728058.54000000004
  0
VERTEX
  5
139
100
AcDbEntity
  8
ewns_dzialki
100
AcDbVertex
100
AcDb2dVertex
 10
7575243.8200000003
 20
5728064.38999999966
  0
VERTEX
  5
13A
100
AcDbEntity
  8
ewns_dzialki
100
AcDbVertex
100
AcDb2dVertex
 10
7575244.1799999997
 20
5728069.61000000034
  0
VERTEX
  5
13B
100
AcDbEntity
  8
ewns_dzialki
100
AcDbVertex
100
AcDb2dVertex
 10
7575244.91999999993
 20
5728080.1799999997
  0
VERTEX
  5
13C
100
AcDbEntity
  8
ewns_dzialki
100
AcDbVertex
100
AcDb2dVertex
 10
7575245.76999999955
 20
5728092.5
  0
VERTEX
  5
13D
100
AcDbEntity
  8
ewns_dzialki
100
AcDbVertex
100
AcDb2dVertex
 10
7575247.12999999989
 20
5728112.20999999996
  0
VERTEX
  5
13E
100
AcDbEntity
  8
ewns_dzialki
100
AcDbVertex
100
AcDb2dVertex
 10
7575247.73000000045
 20
5728120.83999999985
  0
VERTEX
  5
13F
100
AcDbEntity
  8
ewns_dzialki
100
AcDbVertex
100
AcDb2dVertex
 10
7575250.08999999985
 20
5728155.12000000011
  0
VERTEX
  5
140
100
AcDbEntity
  8
ewns_dzialki
100
AcDbVertex
100
AcDb2dVertex
 10
7575254.21999999974
 20
5728189.79999999981
  0
VERTEX
  5
141
100
AcDbEntity
  8
ewns_dzialki
100
AcDbVertex
100
AcDb2dVertex
 10
7575258.25999999978
 20
5728209.08000000007
  0
VERTEX
  5
142
100
AcDbEntity
  8
ewns_dzialki
100
AcDbVertex
100
AcDb2dVertex
 10
7575267.13999999966
 20
5728259.26999999955
  0
VERTEX
  5
143
100
AcDbEntity
  8
ewns_dzialki
100
AcDbVertex
100
AcDb2dVertex
 10
7575267.58000000007
 20
5728263.8200000003
  0
VERTEX
  5
144
100
AcDbEntity
  8
ewns_dzialki
100
AcDbVertex
100
AcDb2dVertex
 10
7575269.12999999989
 20
5728274.84999999963
  0
VERTEX
  5
145
100
AcDbEntity
  8
ewns_dzialki
100
AcDbVertex
100
AcDb2dVertex
 10
7575268.74000000022
 20
5728291.70000000019
  0
VERTEX
  5
146
100
AcDbEntity
  8
ewns_dzialki
100
AcDbVertex
100
AcDb2dVertex
 10
7575267.83000000007
 20
5728332.05999999959
  0
VERTEX
  5
147
100
AcDbEntity
  8
ewns_dzialki
100
AcDbVertex
100
AcDb2dVertex
 10
7575267.13999999966
 20
5728362.21999999974
  0
VERTEX
  5
148
100
AcDbEntity
  8
ewns_dzialki
100
AcDbVertex
100
AcDb2dVertex
 10
7575266.63999999966
 20
5728383.91999999993
  0
VERTEX
  5
149
100
AcDbEntity
  8
ewns_dzialki
100
AcDbVertex
100
AcDb2dVertex
 10
7575266.1799999997
 20
5728404.08999999985
  0
VERTEX
  5
14A
100
AcDbEntity
  8
ewns_dzialki
100
AcDbVertex
100
AcDb2dVertex
 10
7575265.78000000026
 20
5728421.84999999963
  0
SEQEND
  5
14B
100
AcDbEntity
  8
ewns_dzialki
  0
POLYLINE
  5
14C
100
AcDbEntity
  8
ewns_dzialki
  6
CONTINUOUS
370
18
100
AcDb2dPolyline
 66
1
 70
129
  0
VERTEX
  5
14D
100
AcDbEntity
  8
ewns_dzialki
100
AcDbVertex
100
AcDb2dVertex
 10
7575267.05999999959
 20
5727768.08999999985
  0
VERTEX
  5
14E
100
AcDbEntity
  8
ewns_dzialki
100
AcDbVertex
100
AcDb2dVertex
 10
7575582.76999999955
 20
5727844.36000000034
  0
VERTEX
  5
14F
100
AcDbEntity
  8
ewns_dzialki
100
AcDbVertex
100
AcDb2dVertex
 10
7575578.48000000045
 20
5727790.04999999981
  0
VERTEX
  5
150
100
AcDbEntity
  8
ewns_dzialki
100
AcDbVertex
100
AcDb2dVertex
 10
7575175.79999999981
 20
5727694.54999999981
  0
VERTEX
  5
151
100
AcDbEntity
  8
ewns_dzialki
100
AcDbVertex
100
AcDb2dVertex
 10
7575201.05999999959
 20
5727739.15000000037
  0
VERTEX
  5
152
100
AcDbEntity
  8
ewns_dzialki
100
AcDbVertex
100
AcDb2dVertex
 10
7575238.29000000004
 20
5727747.40000000037
  0
VERTEX
  5
153
100
AcDbEntity
  8
ewns_dzialki
100
AcDbVertex
100
AcDb2dVertex
 10
7575253.20000000019
 20
5727750.49000000022
  0
VERTEX
  5
154
100
AcDbEntity
  8
ewns_dzialki
100
AcDbVertex
100
AcDb2dVertex
 10
7575267.36000000034
 20
5727753.78000000026
  0
SEQEND
  5
155
100
AcDbEntity
  8
ewns_dzialki
  0
MTEXT
  5
156
100
AcDbEntity
  8
ewns_dzialki
370
50
100
AcDbMText
 10
7575164.00999999978
 20
5727764.41999999993
 40
2.5000
 41
0.0
 71
5
 72
1
  1
\W0.6563x;381
  7
STANDARD
 11
1.00000000
 21
0.00000000
 44
0.90
 90
3
 63
0
 45
1.0
  0
MTEXT
  5
157
100
AcDbEntity
  8
ewns_dzialki
370
50
100
AcDbMText
 10
7575162.625
 20
5727785.64499999955
 40
2.5000
 41
0.0
 71
5
 72
1
  1
\W0.6563x;380
  7
STANDARD
 11
1.00000000
 21
0.00000000
 44
0.90
 90
3
 63
0
 45
1.0
  0
MTEXT
  5
158
100
AcDbEntity
  8
ewns_dzialki
370
50
100
AcDbMText
 10
7575488.36327716988
 20
5727833.90000000037
 40
2.5000
 41
0.0
 71
5
 72
1
  1
\W0.6563x;461/2
  7
STANDARD
 11
1.00000000
 21
0.00000000
 44
0.90
 90
3
 63
0
 45
1.0
  0
MTEXT
  5
159
100
AcDbEntity
  8
ewns_dzialki
370
50
100
AcDbMText
 10
7575052.15499999933
 20
5727737.54999999981
 40
2.5000
 41
0.0
 71
5
 72
1
  1
\W0.6563x;382
  7
STANDARD
 11
1.00000000
 21
0.00000000
 44
0.90
 90
3
 63
0
 45
1.0
  0
MTEXT
  5
15A
100
AcDbEntity
  8
ewns_dzialki
370
50
100
AcDbMText
 10
7575234.20999999996
 20
5727768.6799999997
 40
2.5000
 41
0.0
 71
5
 72
1
  1
\W0.6563x;462
  7
STANDARD
 11
1.00000000
 21
0.00000000
 44
0.90
 90
3
 63
0
 45
1.0
  0
MTEXT
  5
15B
100
AcDbEntity
  8
ewns_dzialki
370
50
100
AcDbMText
 10
7575363.10500000045
 20
5727713.11500000022
 40
2.5000
 41
0.0
 71
5
 72
1
  1
\W0.6563x;465
  7
STANDARD
 11
1.00000000
 21
0.00000000
 44
0.90
 90
3
 63
0
 45
1.0
  0
MTEXT
  5
15C
100
AcDbEntity
  8
ewns_dzialki
370
50
100
AcDbMText
 10
7575372.23000000045
 20
5727733.99000000022
 40
2.5000
 41
0.0
 71
5
 72
1
  1
\W0.6563x;464
  7
STANDARD
 11
1.00000000
 21
0.00000000
 44
0.90
 90
3
 63
0
 45
1.0
  0
MTEXT
  5
15D
100
AcDbEntity
  8
ewns_dzialki
370
50
100
AcDbMText
 10
7575055.33219372947
 20
5727294.97499999963
 40
2.5000
 41
0.0
 71
5
 72
1
  1
\W0.6563x;829
  7
STANDARD
 11
1.00000000
 21
0.00000000
 44
0.90
 90
3
 63
0
 45
1.0
  0
MTEXT
  5
15E
100
AcDbEntity
  8
ewns_dzialki
370
50
100
AcDbMText
 10
7575379.28500000015
 20
5727769.45500000007
 40
2.5000
 41
0.0
 71
5
 72
1
  1
\W0.6563x;463
  7
STANDARD
 11
1.00000000
 21
0.00000000
 44
0.90
 90
3
 63
0
 45
1.0
  0
ENDSEC
  0
SECTION
  2
OBJECTS
  0
DICTIONARY
  5
15F
330
0
100
AcDbDictionary
280
0
281
1
  3
ACAD_GROUP
350
160
  3
ACAD_LAYOUT
350
161
  3
ACAD_MLINESTYLE
350
162
  3
ACAD_PLOTSETTINGS
350
163
  3
ACAD_PLOTSTYLENAME
350
164
  0
DICTIONARY
  5
160
102
{ACAD_REACTORS
330
15F
102
}
330
15F
100
AcDbDictionary
280
0
281
1
  0
DICTIONARY
  5
161
102
{ACAD_REACTORS
330
15F
102
}
330
15F
100
AcDbDictionary
280
0
281
1
  3
Layout
350
19
  3
Model
350
17
  0
DICTIONARY
  5
162
102
{ACAD_REACTORS
330
15F
102
}
330
15F
100
AcDbDictionary
280
0
281
1
  3
Standard
350
165
  0
DICTIONARY
  5
163
102
{ACAD_REACTORS
330
15F
102
}
330
15F
100
AcDbDictionary
280
0
281
1
  0
ACDBDICTIONARYWDFLT
  5
164
102
{ACAD_REACTORS
330
15F
102
}
330
15F
100
AcDbDictionary
281
1
  3
Normal
350
9
100
AcDbDictionaryWithDefault
340
9
  0
LAYOUT
  5
19
100
AcDbPlotSettings
  1

  2

  4

  6

 40
0.0
 41
0.0
 42
0.0
 43
0.0
 44
0.0
 45
0.0
 46
0.0
 47
0.0
 48
0.0
 49
0.0
140
0.0
141
0.0
142
1.0
143
1.0
 70
688
 72
1
 73
0
 74
5
  7

 75
0
147
1.0
148
0.0
149
0.0
100
AcDbLayout
  1
Layout
 70
1
 71
1
 10
0.0
 20
0.0
 11
420.0
 21
297.0
 12
0.0
 22
0.0
 32
0.0
 14
100000000000000000000.0
 24
100000000000000000000.0
 34
100000000000000000000.0
 15
-100000000000000000000.0
 25
-100000000000000000000.0
 35
-100000000000000000000.0
146
0.0
 13
0.0
 23
0.0
 33
0.0
 16
1.0
 26
0.0
 36
0.0
 17
0.0
 27
1.0
 37
0.0
 76
0
330
18
  0
LAYOUT
  5
17
100
AcDbPlotSettings
  1

  2

  4

  6

 40
0.0
 41
0.0
 42
0.0
 43
0.0
 44
0.0
 45
0.0
 46
0.0
 47
0.0
 48
0.0
 49
0.0
140
0.0
141
0.0
142
1.0
143
1.0
 70
1712
 72
1
 73
0
 74
0
  7

 75
0
147
1.0
148
0.0
149
0.0
100
AcDbLayout
  1
Model
 70
1
 71
0
 10
0.0
 20
0.0
 11
12.0
 21
9.0
 12
0.0
 22
0.0
 32
0.0
 14
0.0
 24
0.0
 34
0.0
 15
0.0
 25
0.0
 35
0.0
146
0.0
 13
0.0
 23
0.0
 33
0.0
 16
1.0
 26
0.0
 36
0.0
 17
0.0
 27
1.0
 37
0.0
 76
0
330
16
  0
MLINESTYLE
  5
165
102
{ACAD_REACTORS
330
162
102
}
330
162
100
AcDbMlineStyle
  2
Standard
 70
0
  3

 62
256
 51
90.0
 52
90.0
  2
Standard
 71
2
 49
0.5
 62
256
  6
ByLayer
 49
-0.5
 62
256
  6
ByLayer
  0
ACDBPLACEHOLDER
  5
9
  0
ENDSEC
  0
EOF
